paramoreband (paramoreband) wrote in paramoremusic,
paramoreband
paramoreband
paramoremusic

PRESSURE- guitar tab by josh (paramore)

Intro
e--------------------------------
b--------------------------------7-7-7-7-7-7--------------
g---7-7-7-7-7-7---7-7-7-7-7-7--7-7-7-7-7-7---7-7-7-7-7-7-
d---x-x-x-x-x-x---0-0-0-0-0-0--7-7-7-7-7-7---0-0-0-0-0-0-
a---9-9-9-9-9-9---0-0-0-0-0-0--5-5-5-5-5-5---0-0-0-0-0-0-
D---9-9-9-9-9-9--0-0-0-0-0-0---5-5-5-5-5-5---0-0-0-0-0-0--

Intro lead
e--------------------------------------------------------------------
b-------------------------------------------------------------------
g----11-11-11/9-9-9-14-14-14/11-11-11--11-11-11/9-9-9-6-6-6/7-7-7--
d-----x--x--x-x-x-x---x--x--x-x--x---x---x--x--x-x-x-x-x-x-x-x-x-x-
a-----9--9—9/7-7-7--12-12-12/9--9---9---9--9--9/7-7-7-4-4-4/5-5-5--
E-------------------------------------------------------------------




Verse rhythm guitar
e--------------------------------
b--------------------------------
g--------------------------------
d----9-9--9/5-5-5/0-0-0--4-4--4/----------
a----9-9--9/5-5-5/0-0-0--4-4--4/-(2x)----
D----9-9--9/5-5-5/0-0-0--4-4--4/----------

The second half of the verse is the same chords just different rhythm. Its more choppy so
just listen to it and figure it out.

Verse lead guitar (during the choppy part)
e-----------------------------------------------------5-------
b--7-7-7-7-7-5-5-5-5-5--5-5-5-5-5--5-5-----------------
g--7-7-7-7-7-7-7-7-7-7--7-7-7-7-7--6-6--6h7---7(very subtle)
d---------------------------------------------------------------
a----------------------------------------------------------------
D---------------------------------------------------------------


^ = bend

Chorus rhythm
e---------------------------------------------
b---------------------------------------------
g---------------------^11^--------------------
d----7----7--7--7-----x---7--7--7--7------
a----5----0--4--5----^9 ^-5--0--4--5--(2x)-
D---5----0--4--5----------5--0--4--5-------

Listen to the song to find the strumming pattern

Chorus lead
e-------------17------------------17----------------------17--------|------------^14^-
b-------15------15---------15-------15---15------14----------14----|-----15----------
g---16----16------16--14-----14-------14------14----14--14------14-|-16------16----
d-------------------------------------------- 1st ending
a--------------------------------------------
D--------------------------------------------

e-------------17------------------17--------------------17-----------|-----------17---------
b-------15------15---------15-------15---15------14----------14-----|----15---------15----15-
g---16----16------16--14----14--------14------14----14----14----14-|-16-----16--------16-
d-------------------------------------------- 2nd ending
a--------------------------------------------
D--------------------------------------------

Bridge Lead
(The rythym guitar is the same chords as it is in the verse with a little different rhythm pattern)

e--------------9-------------------9------------------------9---------------------9------------
b-------10-------10------10----------10-----------10---------10----10-----10-------10-----10-
g------------7-------7---------7-----------7-----------7---------7-------------7--------7-----
d----9------------------9-----------------------0---------------------------------------------
a------------------------------------------------------------------------9-------------------
D--------------------------------------------------------------------------------------------

Well that’s basically it. We mixed things up throughout the song on the recording but that’s mostly it. Forgive me if I messed up. Have fun.




sorry the alignment sucks again i dont know how to get it straight!
Subscribe

  • Post a new comment

    Error

    Comments allowed for members only

    Anonymous comments are disabled in this journal

    default userpic

    Your reply will be screened

  • 15 comments